Ghajini Kaise mujhe tum mil gayi and Guzarish Guitar tabs and video - By Girish Suryawanshi

Posted on

2 Comments

Ghajini Kaise mujhe tum mil gayi and Guzarish Guitar tabs and video - By Girish Suryawanshi

More than 17,500 views
 
 
Ghajini Kaise mujhe tum mil gayi and Guzarish Guitar tabs and video - By Girish Suryawanshi

 
E -----------------------------------------------------------------------------

A -----------------------------------------------------------------------------
D -----------------------------------------------------------------------------
G -----------------5-5----------------------------------5-5-5------------------
B --6-------6--5--------5-------------6----------6--5--------------------------
E -----3-5-------------------------------3--5----------------------------------
 
 
 

E -----------------------------------------------------------------------------
A -----------------------------------------------------------------7-----------
D ---------------------------------------------------6-------5--------5--------
G ----5-5---5-------------------------------5---5-------5------5---------------
B -----------3--5--55--5---------66---5-3--------5-----------------------------
E -------------------------33--------------------------------------------------
 
 

E -----------------------------------------------------------------------------
A -----------------------------------------------------------------------------
D -----------------------------------------------------------------------------
G -------------------5--5-2--5-------------------------------------------------
B --------------6-5--------------3--55-------------55----88----87--------------
E ----3-3-3-3----------------------------55---88---------------------55--------
 
 
 
 
E -----------------------------------------------------------------------------
A -----------------------------------------------------------------------------
D -----------------------------------------------------------------------------
G --------------------------5---55---7------------------7---7------------------
B --------88----------------------------5----8---88--77-------7-----8----------
E ---55-----------55---88----------------------------------------5-------------
 
 


 
 
 
Guzarish - Guitar Intro - Guitar tabs - By Girish Suryawanshi
 
E -----------------------------------------------------------------------------
A -----------------------------------------------------------------------------
D -----------------------------------------------------------------------------
G ---99--------------------11------11----------99--------------------11------11
B -------12--10--12------------10------------------12--10--12------------10----
E -------------------10-----------------------------------------10-------------
 
 

E -----------------------------------------------------------------------------
A -----------------------------------------------------------------------------
D -----------------------------------------------------------------------------
G ---9--------------------11------11--------12--11---12------------------------
B -------12--10--12------------10----------------------12----------------------
E -------------------10--------------------------------------------------------
 
 

E -----------------------------------------------------------------------------
A -----------------------------------------------------------------------------
D -----------------------------------------------------------------------------
G ---------------------------------------------------11------------------------
B -----12----10-10--10--8--10--12--10-12-10-8-8---8---8--10--8-
E --8--------------------------------------------------------------------------
 
 
 
 
E --------------------------------------------------------------------------------
A --------------------------------------------------------------------------------
D --------------------------------------------------------------------------------
G -11-11-11-11-11-11-11-11------------------------99--------------11------11
B --------------------------12---10S12---12-10-8-----12--10--12-------10-----
E -----------------------------------------------------------------10-------------
 

If you think this post helped you in someway and would like to support us, you can do it here - Support trips2london.com




 
Want to create you own blog?
--> Start here <--

Watch my blogs and comment?
--> Start here <--


Visit London

Add a comment:

Leave a comment:

Comments

  1. pep (smartymithi@yahoo.com)

    pagal 99 fret se 12 par shifting karvayega..........99 ne hote gi nahi hai

    Posted on

  2. (nice.guy.11551@gmail.com)

    great video...nice hq video and audio ans nice guitar tabs

    Posted on

Add a comment